Transpose: Reset | Hide Chords | Overview | Print
Am               D
E----------------------------5--3---
B--------1--3^------------1---------
G-----2----------------2------------
D----------------------------------- Play 2 times
A-----------------------------------
E-----------------------------------

  Am            D         Am
E--------------------------
B--------------------------
G------2-----2-------------
D---2-----2-----4--2--0--2-  Repeat
A--------------------------
E--------------------------

  D           G        D
E------------------------
B----2-----3-------------
G-2-----2-----4--2--0--2-
D------------------------
A------------------------
E------------------------

  Am            D         Am
E------------------------
B------------------------
G-----2-----2------------
D--2-----2-----4--2--2---
A------------------------
E------------------------
  F                           Am
E----------------------------------
B----------------------------------
G---------------------------------- Played 2 times with muted strings.
D---3333---3333---3333---3333-2----
A-3------3------3------3--------0*-
E----------------------------------

* = Only played the first time

  F            G        Am
E-----------------------0-----------
B-------1--0---0--1--3-----3--1-----
G----2----------------------------2-
D-3---------------------------------
A-----------------------------------
E-----------------------------------
  F            G        C
E---------------------------------
B-------1--0---0--1--3------------
G-----2------------------0--------
D-3-------------------------------
A---------------------------------
E---------------------------------
  C7
E-----3-------6---
B-2/5---5-5/8---8-
G-----------------
D-----------------
A-----------------
E-----------------
  F            G        Am
E-----------------------0-----------
B-------1--0---0--1--3-----3--1-----
G----2----------------------------2-
D-3---------------------------------
A-----------------------------------
E-----------------------------------
  F                           Am
E----------------------------------
B----------------------------------
G---------------------------------- Played 2 times with muted strings.
D---3333---3333---3333---3333------
A-3------3------3------3------2-0*-
E----------------------------------

* = Only played the first time

  Am              D            Am
E-----------------------------------
B-----------------------------------
G----------------------------------- Play 2 times with muted strings.
D---77777-----7----------------7----
A-7-------7-7---7-99999--7--5-----7-
E-----------------------------------
  D               G            D
E-----------------------------------
B-----------------------------------
G---77777-----7----------------7----
D-7-------7-7---7-99999--7--5-----7-
A-----------------------------------
E-----------------------------------
  Am              D            Am
E-----------------------------------
B-----------------------------------
G----------------------------------- Play with muted strings.
D---77777-----7----------7--5--7----
A-7-------7-7---7-99999-----------7-
E-----------------------------------
  Am
E-----0---
B----1----
G---2-----
D--2------
A-0-------
E---------

  F            G        Am
E-----------------------0-----------
B-------1--0---0--1--3-----3--1-----
G----2----------------------------2-
D-3---------------------------------
A-----------------------------------
E-----------------------------------
  F            G        C
E------------------------------------------
B-------1--0---0--1--3---------------------
G-----2------------------0----0000-1-0-1-0-
D-3----------------------------------------
A------------------------------------------
E------------------------------------------
  F            G        Am
E-----------------------0-----------
B-------1--0---0--1--3-----3--1-----
G----2----------------------------2-
D-3---------------------------------
A-----------------------------------
E-----------------------------------
  F                           Am
E----------------------------------
B----------------------------------
G---------------------------------- Played with muted strings.
D---3333---3333---3333---3333------
A-3------3------3------3------2-0--
E----------------------------------
  F                           Am
E-------------------------------
B-------------------------------
G-------------------------------
D----------------------333333-2-
A--------000000-333333----------
E-111111------------------------

   Am               D
E----------------------------5--3---
B--------1--3^------------1---------
G-----2----------------2------------
D----------------------------------- Play 3 times
A-----------------------------------
E-----------------------------------

   Am               D
E------------------------------------
B--------1--3^------------1-----1----
G-----2----------------2-----2-----2-
D------------------------------------
A------------------------------------
E------------------------------------

   Am               D
E----------------------5--3--0----------------
B--------1--3^------------------3--1--0-------
G-----2----------------------------------0--2-
D---------------------------------------------
A---------------------------------------------
E---------------------------------------------