Transpose: Reset | Hide Chords | Overview | Print
[intro]
   C
E--0--x---0---0--x---0---0--x---0---0---0----
B--1--x---1---1--x---1---1--x---1---1---1----
G--0--x---0---0--x---0---0--x---0---0---0----    2x
D--2--x---2h3-3--x---0h2-2--x---2h3p2---0h2--
A--3--x---3---3--x---3---3--x---3---3---3----
E--------------------------------------------

   F
E--0--x---0---0--x---0---0--x---0---0---0----
B--4--x---4---4--x---1---1--x---4---4---4----
G--0--x---0---0--x---0---0--x---0---0---0----
D--5--x---5h6-5--x---5---5--x---5h6-5---5----
A--6--x---6---6--x---3---3--x---6---6---6----
E--------------------------------------------

   C
E--0--x---0---0--x---0---0--x---0---0---0----
B--1--x---1---1--x---1---1--x---1---1---1----
G--0--x---0---0--x---0---0--x---0---0---0----
D--2--x---2h3-3--x---0h2-2--x---2h3p2---0h2--
A--3--x---3---3--x---3---3--x---3---3---3----
E--------------------------------------------


[verse]
  C
I sit on the beach, my guitar does the talking
          Dm                     G7           C
While the noise of the sea mixes voice into sound
  C
I don’t wanna leave, please keep me from walking
    Dm                       G7        C
I’m glad that I’m here still hanging around


[chorus]
Am       Em
Dreaming of an 
F                G
Infinite life or what it should be
Am       Em
Don’t disturb me
F                       G        C
While I’m sleeping, I’m flying around

C   C   F   G-F-C   C


[verse]
   C
No cloud in the sky, only birds flying by me
Dm                       G7       C
Planes flying high, destination unknown
        C
There’s sand in my flip-flops here under the palm-tree
    Dm                         G7          C
But I really like it ‘cause it tickles my toes


[chorus]
Am       Em
Dreaming of an 
F                G
Infinite life or what it should be
Am       Em
Don’t disturb me
F                       G        C
While I’m sleeping, I’m flying around


[bridge]
    F                          G
And when the time flies in the corner of my eyes
Am                       Em
I see my allies and they ask me to come
    F                    G
The clock is making it's usual turns and 
Am                          G
Although I’m stranded still feels like I’m home


[chorus]
Am       Em
Dreaming of an 
F                G
Infinite life or what it should be
Am       Em
Don’t disturb me
F                       G
While I’m sleeping, I’m flying around
Am    Em
Be my buddy
  F
I feel like I’m flying
        G             C
Keep my feet on the ground

C   C   F   C


[verse]
  C
I finally manage to get onto my feet and
     Dm                  G7             C
As I walk to the sea the sun’s getting down
C
All day long I’ve been wasting my time here
Dm                        G7       C
Why should I care I don’t mind anyhow


[chorus]
Am       Em
Dreaming of an 
F                G
Infinite life or what it should be
Am       Em
Don’t disturb me
F                       G
While I’m sleeping, I’m flying around
Am    Em
Be my buddy
  F
I feel like I’m flying
        G             C (break)
Keep my feet on the ground


[solo (no capo)]
   C
E--15-13-11----------------------------------------------------------
B--16-13-11---11h13p11-----------------------------------------------
G----------------------12--10/8-8---------8------8-------------------
D-------------------------------------8h10--10-8---10---8------------
A---------------------------------------------------------10--8------
E----------------------------------------------------------------11--

   C
E--15-13-11----------------------------------------------------------
B--16-13-11---11h13p11---------------------------------11------------
G----------------------12--10/8-8---------8-10--10s12-----12s10-8-8--
D------------------------------------8h10----------------------------
A--------------------------------------------------------------------
E--------------------------------------------------------------------

   C
E--15-13-11----------------------------------------------------------
B--16-13-11---11h13p11---------------------------------11------------
G----------------------12--10/8-8---------8-10--10s12-----12s10-8-8--
D------------------------------------8h10----------------------------
A--------------------------------------------------------------------
E--------------------------------------------------------------------

   C                                                                     Am
E--15-13-11-----------------------------------------------------------------
B--16-13-11---11h13p11------------------------------------------------------
G----------------------12--10/8-8---------8------8--------------------------
D-------------------------------------8h10--10-8---10---8-------------------
A---------------------------------------------------------10--8-------------
E----------------------------------------------------------------11--10--8--


[chorus]
Am       Em
Dreaming of an 
F                G
Infinite life or what it should be
Am       Em
Don’t disturb me
F                       G
While I’m sleeping, I’m flying around
Am    Em
Be my buddy
  F
I feel like I’m flying
        G             C 
Keep my feet on the ground


[outro (no capo)]
E--6---4-3-----------3----
B----------6-4---4-6---4--
G-------------------------
D-------------------------
A-------------------------
E-------------------------