Transpose: Reset | Hide Chords | Overview | Print
[intro]
   B                    C#m7                   E
E--------------------------------------7----------------------------------
B---------------------------------7------9--------------------------------
G--------4-----4--------------6/8---8----------------9-9--8-9-8-------8---
D--------4h6p4---6-4-----------------------------------------------11-9---
A-----------------------4-4--------------------7-7------------------------
E--7-7--------------------------------------------------------------------


[verse]
B
Did I tell you this story
                       C#m7
About that boy who was broke and lonely, broke and lonely
       E
He was living in a flat
          B
All by himself

B
He was left by his girlfriend at the age of 23
         C#m7
Cause it wasn't him that she wanted to see
     E
Well what was wrong
               B
What was going on

B
Well she'd ran into a tall man with no hair
        C#m7
And she didn't waste a minute, so she kissed him right there
   E                                           B
In front of that poor man, he dropped his soda can


[chorus]
B                      A
You've got to love his style
         E                                 B
Yeah you got to love this boy for a little while
                       A
You've got to love his style
    E                                 B
You got to love this boy for a little while


[verse]
Nevertheless she had no regrets
From what she did that day
A great relationship, she just threw it away
And he had nothing to say

But don't start thinking the boy's hope is gone
Because he's sitting in his room playing Donkey Kong
There's nothing going on
No there is nothing wrong

His careface shows that he is over it,
And to be honest, man I have to admit,
That she was not the one,
So now he's moving on


[chorus]
That's why I've got to love his style
Yeah I got to love this boy for a little while
You've got to love his style
Yeah you got to love this boy for a little while


[bridge]
F#
Oh yeah I love the way he's still unaffected
  E
I just can't believe it, man you've got to respect it
      B
Where I should have cried 
He is still dry-eyed


[chorus]
That's why I've got to love his style
Yeah I got to love this boy for a little while
You've got to love his style
Yeah you got to love this boy for a little while


[verse]
A few years later when he asked an explanation
For why she couldn't stand the man's temptation
She felt it like a thread
So this is what she said

(scat, then back to chorus)


[chorus]
That's why I've got to love his style
Yeah I got to love this boy for a little while
You've got to love his style
Yeah you got to love this boy
                                            A  Bb  B
Oh yeah you've got to got to love him for a little while


[outro]
guitar 1:                   Bb7 B7
E---------------------------1---2--
B---------------------------3---4--
G---------------------------1---2--
D---------------------------3---4--
A---------------------------1---2--
E--7-7--5-5--4-4--3-3--2-----------

guitar 2:
E---------------------------6---7--
B---------------------------6---7--
G---------------------------7---8--
D---------------------------6---7--
A--2-2--6-6--7-7--8-8--9----8---9--
E---------------------------6---7--