Transpose: Reset | Hide Chords | Overview | Print
[intro]
   D
E----2--2-2-------------2-2--------2--2-2-------------2-2--
B----3--3-3---3-3---3---3-3--------3--3-3---3-3---3---3-3--
G----2--2-2---4-2-2-2---2-2--------2--2-2---4-2-2-2---2-2--
D--0----0-0-------4-----0-0------0----0-0-------4-----0-0--
A----------------------------------------------------------
E----------------------------------------------------------

   G                             D          A          D
E----3--3-3---3/5-5/3---3-3--------2--2-2-----0--0-0-----2--2-2-2--
B----3--3-3---3/5-5/3---3-3--------3--3-3-----2--2-2-----3--3-3-3--
G----0--0-0-------------0-0--------2--2-2-----2--2-2-----2--2-2-2--
D----0--0-0-------------0-0------0----0-0-----2--2-2---0-----------
A-------2-2-------------2-2-----------------0----------------------
E--3----3-3-------------3-3----------------------------------------


[verse]
D
There's a spider crawling your mind
I wonder what he is going to find
  G
I send it there to check you out
It's reporting clear and loud
      D                 A             D
But i still don't know, what is going down

The process is lasting now for almost a week
The searching continues cause I asked it to seek
And while the results are slowly trickling in
I got no idea where I should begin
I'm gonna frown my brow, I'm gonna do it now


[chorus]
D
Spider, spider, do your thing,
Make me feel happy so I wanna sing
Bm
Songs to her about the good old days
When she caught up to my catchy catchphrase
         A                  G              D  
Before I realized she had a dirty small surprise
         A                  G              D  
Before I realized she had a dirty small surprise


[verse]
So now I've got your profile page
I know where you live, I know your interests, your age
I know you're already taken, and that you where fakin'
My stumic feels sick, my head was already aching
It was a waste of my time that I tried it anyway

So finally I've got through you
It was not about me but it was all about you
I'm gonna pack my things, I'm getting ready to go
But there is still one thing that i want you to know
Before you can ask me to stay, I'll already be far away


[solo]
   D
E--------------------------/5--5--5-------
B--/7--7--7p5---5-------------------8--7--
G-------------7----7--7-------------------
D-----------------------------------------
A-----------------------------------------
E-----------------------------------------

   G
E--5/7--7--7p5---5-----------7--7--7-5---------7----
B--------------8----8--8----------------8----8---8--
G---------------------------------------------------
D---------------------------------------------------
A---------------------------------------------------
E---------------------------------------------------

   D       A         D
E--------------------------2-2/10---10--------------
B--7-7-----5--5h7p5s3-3------------10---------------
G---------------------------------11----------------
D---------------------------------------------------
A---------------------------------------------------
E---------------------------------------------------


[chorus]
Spider, spider, do your thing,
Make me feel happy so I wanna sing
Songs to her about the good old days
When she caught up to my catchy catchphrase
Before I realized she had a dirty small surprise