Transpose: Reset | Hide Chords | Overview | Print
[intro]
E|-------------|
B|-------------|
G|-------------|
D|-444444444---|
A|-444444444---|
E|-222222222---|


[verse]
E|-------------------------------------------|
B|-------------------------------------------|
G|----6/7-6-4------------4/6-4---------------|   x4
D|-4--6/7-6-4----4-------4/6-4-4-------------|
A|-4--4/5-4-2--0h2--0h2--2/4-2-4-------------|
E|-2---------------------------2--0-2-5-2-0--|


[chorus]
E|-5--55--55-55-2-2-22-------|
B|-5--55--55-55-3-2-22-77-77-|
G|-6--66--66-66-4-2-22-77-77-|     x2
D|-7--77--77-77-4-4-44-77-77-|
A|-7--77--77-77-2-4-44-55-55-|
E|-5--55--55-55-2-2-22-------|


[solo]
e|---------------------------------------------------------------------------|
B|----5--------------------5---------------------5----5-----------------5----|
G|-b4---b4----b4r-2---2-b4---b4~----b4r-2---2-b4---b4------b4r-2---2-b4----b4|
D|------------------4---------------------4----------------------4-----------|
A|---------------------------------------------------------------------------|
E|---------------------------------------------------------------------------|

e|-----------------|
B|-----------------|
G|-b4b4b4b4b4b4b4--|
D|-----------------|
A|-----------------|
E|-----------------|


| /  slide up
| \  slide down
| h  hammer-on
| p  pull-off
| ~  vibrato
| +  harmonic
| x  Mute note


[lyrics]
You said you'd marry me if I was 23
But I'm one that you can't see if I'm only 18
Tell me who made these rules
Obviously not you
Who are you answering to?

Oh, Jenny don't be hasty
No, don't treat me like a baby
Let me take you where you'll let me
Because leaving just upsets me

I'll be around again to see the other men
They're more adequate in the age department
I did not think you cared.
There'd be no problems here
But now you're looking at me like you're disgusted
Then I'm definitely waiting for you to smile and change your mind
Then I'll say I'm sorry and I'll wrap my arms 'round your body
I really hope that you forgive in a hurry
And don't just ask me to leave

Oh, Jenny don't be hasty
Don't treat me like a baby
Let me take you where you'll let me
Because leaving just upsets me

Oh, Jenny you are crazy!
First I'm perfect, then I'm lazy
                         A      E
And I was calling you my baby
                            Bm        D
Now it sounds like you just left me.
And it kills me!