Transpose: Reset | Hide Chords | Overview | Print
[intro]
   E  G#  C#m  A             C7   B7      E
E|----------------------------------------------------------------
B|----------------------------------------------------------------
G|----------------------9h11-9----11^-11^-9-----------------------
D|-----------------9h11------------------------------9------------
A|----------------------------------------------9h11---9h11-9-----
E|------------------------------------------------------------12--

   E  G#      C#m           A                C7    B7      E
E|----------------------------------------------------------------
B|----------------------------------------------------------------
G|------------9----11^-9----9----11^-9-------9-----11^-11^-9------
D|-------9-11------------11------------11-------------------------
A|----11----------------------------------------------------------
E|----------------------------------------------------------------


[verse]
E          G#              C#m        A
There's no need for you to say you're sorry
    C7      B7    E
Goodbye I'm going home
E       G#                C#m       A
I don't care no more - so don't you worry
    C7      B7    E
Goodbye I'm going home


[chorus]
A                        E                      A                    E
I hate the way that even though you know you're wrong you say you're right 
A                             E
I hate the books you read and all your friends 
     F#                        A                    G
Your music's shite it keeps me up all night - up all night


[verse]
E          G#              C#m        A
There's no need for you to say you're sorry
    C7      B7    E
Goodbye I'm going home
E       G#                C#m       A
I don't care no more - so don't you worry
    C7      B7    E
Goodbye I'm going home


[chorus]
A                           E                A               E
I hate the way that you are so sarcastic and you're not very bright 
A                                E
You think that everything you've done's fantastic 
     F#                        A                    G
Your music's shite it keeps me up all night - up all night


[solo]
E - G# - C#m - A - C7 - B7 - E (2x)


[bridge]
C#m            G#m         A                  E
And it will be nice to be alone for a week or two 
C#m             G#m
But I know that I will be right
A                    B
Right back here with you
     A         G#m       F#m       B
with you, with you, with you, with you
     A         G#m       F#m
with you, with you - ouuu


[chorus]
E          G#              C#m        A
There's no need for you to say you're sorry
    C7      B7    E
Goodbye I'm going home
E       G#                C#m       A
I don't care no more - so don't you worry
    C7      B7    E       E7
Goodbye I'm going home