Transpose: Reset | Hide Chords | Overview | Print
[intro/verse]
E--9----9----9----9-----7---7---7---7----9--9---
B--10---10---10---10----7---7---7---7----9--10--
G--11---11---11---11----7---7---7---7----10-11--
D--11---11---11---11----9---9---9---9----11-11--
A--9----9----9----9-----9---9---9---9----11-9---
E-----------------------7---7---7---7----9------


[pre-chorus]
E--9----9------9--9--9------7---7-----9--9--9---
B--10---10-----9--9--9------7---7-----9--9--9---
G--11---11-----10-10-10-----7---7-----10-10-10--
D--11---11-----11-11-11-----9---9-----11-11-11--
A--9----9------11-11-11-----9---9-----11-11-11--
E--------------9--9--9------7---7-----9--9--9---


[chorus]
E--9----9----7---7---7---7----9----9---
B--10---10---7---7---7---7----9----10--
G--11---11---7---7---7---7----10---11--
D--11---11---9---9---9---9----11---11--
A--9----9----9---9---9---9----11---9---
E------------7---7---7---7----9--------

E--9----9----7---9----9----9------7-9--9---
B--10---9----7---9----10---9------7-9--10--
G--11---10---7---10---11---10-----7-10-11--
D--11---11---9---11---11---11-----9-11-11--
A--9----11---9---11---9----11-----9-11-9---
E-------9----7---9---------9------7-9------


[verse]
F#m
Bottles of reasons I kept in the freezer
Bm                                                     C# F#m
Now they wont leave me, why won't they leave me alone?
And with these old reasons are bottled up feelings
Bm                                            C# F#m
I wont be leaving no, won't be leaving alone


[pre-chorus]
     F#m
What is in it? What is in it?
   C#
To pour myself some more
     Bm
What is in it? What is in it?
    C#
I'm always back for more


[chorus]
F#m
Oh whiskey and wine
       Bm
You've messed up my mind
Whiskey and wine
       C#          F#m
You've got me this time

F#m  C#  Bm  C#  F#m  C#  Bm-C#-F#m


[verse]
Bottles of reasons have now reached the ceiling
It's hard to hide it, I'll hide behind it for now
My big mouth said too much, I'm shaking at your touch
All the bottles came crashing down to the floor

[pre-chorus]
What is in it? What is in it?
It couldn't be so bad
What is in it? What is in it?
That's driving me so mad


[chorus]
Oh whiskey and wine
You've messed up my mind
Whiskey and wine
You've got me this time


[verse]
Bottles of reasons I've kept in the freezer
Now they won't leave me, why won't they leave me alone?
And with these old reasons are bottled up feelings
I won't be leaving, so won't you leave me alone


[pre-chorus]
What is in it? What is in it?
To pour myself some more
What is in it? What is in it?
I'm always back for more


[chorus]
Oh whiskey and wine
You've messed up my mind
Whiskey and wine
You've got me this time

I used to be fine 'till whiskey arrived
Now whiskey and wine stays on my mind