Transpose: Reset | Hide Chords | Overview | Print
[intro]
E|------------------------
B|------------------------
G|------------2-----------
D|---0--1--2--------------
A|--0---------------------
E|---------------0--2--4--

    A             E              A                D
E|------------------------------------------------------------
B|------------------------------------------------------------
G|--9----9--7--6-----------6-6--6h7---------------------------
D|----------------9-----9-----------------7--9-9--9s11--9--7--
A|------------------------------------------------------------
E|------------------------------------------------------------

             A     E           A     E            A
E|------------------------------------------------------------
B|------------------------------------------------------------
G|--7--6-----6--------7--6------------------------------------
D|--------9--------9--------9--7---------------6--7-----------
A|-----------------------------------7-7-7--9-----------------
E|------------------------------------------------------------
                                        My sweet rose...

[verse]
	 A
My sweet rose
		 E
As the two of us grow
	       A
I want you to know that nothing's quite as bad
             D 
As it seems when you're so sad
               A E
So remember my rose
            A E
Remember my rose


[verse]
         A
My sweet rose
            E
I'd like to say
                     A
I'd like to say that no one always gets their way
    D
And no one always thinks the same
   A E
My rose
            A
Remember my rose


[chorus]
                 E
When the seasons cha-a-ange
                  D
And the sky turns grey-a-ey
                     E
When the leaves turn brow-a-own
                 D
I'll be arou-a-ound


[verse]
         A
My sweet rose
                 E
As the two of us change
              A
I want you to know that nothing stays the same
    D
But you and I we will remain
   A E  
My rose
               A
Remember my rose


[solo]
                 D                     A    E           A
E|------------------------------------------------------------------------
B|------------------------------------------------------------------------
G|------------6--6h7--6-------7--6-----6-------7--6-----------------------
D|--6-6-6--9-------------9----------9-------9--------9--7-----------------
A|-----------------------------------------------------------7-7-7--5--4--
E|------------------------------------------------------------------------
                                                        When the seasons...

[chorus]
                 E
When the seasons cha-a-ange
                  D
And the sky turns grey-a-ey
                     E
When the leaves turn brow-a-own
                 D
I'll be arou-a-ound


              A
I want you to know that 

nothing stays the same
     D
But you and I

We will remain
   A E
My rose
            A E
Remember my rose


[verse]
         A
My sweet rose
          E
I want to be
          A
I want to be the one to hold you tight
       D
Have faith in me

I'll be your light
   A E
My rose
            A
Remember my rose


[solo]
                 D                     A    E           A
E|------------------------------------------------------------------------
B|------------------------------------------------------------------------
G|------------6--6h7--6-------7--6-----6-------7--6-----------------------
D|--6-6-6--9-------------9----------9-------9--------9--7-----------------
A|-----------------------------------------------------------7-7-7--5--4--
E|------------------------------------------------------------------------
                                                        When the seasons...

[chorus]
                 E
When the seasons cha-a-ange
                  D
And the sky turns grey-a-ey
                     E
When the leaves turn brow-a-own
                 D
I'll be arou-a-ound


               A
I want you to know that 

nothing stays the same
     D
But you and I

We will remain
   A E
My rose
            A E
Remember my rose


               A
I want you to know that 

nothing stays the same
     D
But you and I

We will remain
   A E
My rose
            A
Remember my rose