Transpose: Reset | Hide Chords | Overview | Print
[intro]
|---------------2-2-|---2-2---|
|---------------3-3-|---3-3---|
|-4p2-----------2-2-|---2-2---|
|----3h4-0---0------|-0-------|
|----------0--------|-0-------|
|-------------------|---------|


[chorus]
D    A
Sunshine
       G             A
I'd really like to tell you
        D   A
Oh my sunshine
       Bm          G        D
Even though your skies are blue
               A
You're drying up my bed
 Bm            G
How can I get any rest now?
  D          A        D
Sha la la la la la la la


[chorus]
 D    A
Someday 
G                 A
You will get the best of me 
    D   A
Oh someday
           Bm       G       D
Probably when I'm old and grey
           A
I'm lying in my bed
    Bm              G
And I will soon be put to rest now
 D           A        D
Sha la la la la la la la


[solo (relative to capo)]
        G                             D
|--------------5----5----5----5----5--5/7-5---5-------|
|----------5h7--5h7--5h7--5h7--5h7----------/7-5------|
|------------------------------------------------7----|
|-----0-----------------------------------------------|
|-0-2-------------------------------------------------|
|-----------------------------------------------------|
  G                           D
|-----5----5----5----5----5-------10------------------|
|-5h7--5h7--5h7--5h7--5h7-----/12----12/10--7-7/8-----|
|-----------------------------------------------------|
|-----------------------------------------------------|
|-----------------------------------------------------|
|-----------------------------------------------------|
  A              Bm            G
|---7/10-10-9----5/7-5--------------------------------|
|-7------10-10---------7p5----------------------------|
|--------------------------4-4/7----------------------|
|-----------------------------------------------------|
|-----------------------------------------------------|
|-----------------------------------------------------|
  D           A             D
|----5---5-----------------------2/10-10--------------|
|-/7---7---7-----7---7----------------10--------------|
|-------------/9---9---9/7--7-------------------------|
|-----------------------------------------------------|
|-----------------------------------------------------|
|-----------------------------------------------------|


[chorus]
 D   A
Sunshine
       G            A
I'd really like to tell you
       D    A
Oh my sunshine
       Bm          G       D
Even though your skies are blue
               A
You're drying up my bed
Bm             G
How can I get any rest now?
 D           A       D
Sha la la la la la la la


[chorus]
 D   A
Someday 
 G                A
You will get the best of me 
     D   A
Oh someday
          Bm        G      D
Probably when I'm old and grey
           A
I'm lying in my bed
    Bm              G                 D    A 
And I will soon be put to rest now


[outro]
D          A
I'm lying in my bed
    Bm              G                
And I will soon be put to rest now (Ooh ooh)  2x
 D        A          D
Sha la la la la la la la