Transpose: Reset | Hide Chords | Overview | Print
[verse riff]
E|------0-0-0-0-0-----------------|
B|------0-0-0-0-0-----------------|
G|------0-0-0-0-0-----------------|
D|------2-2-2-2-2-----------------|
A|------2-2-2-2-2-----------------|
E|---0--0-0-0-0-0---3b--0--3b--0--|

E|-------------------------------------------------|
B|-------------------------------------------------|
G|-------------------------------------------------|
D|-------------------------------------------------|
A|----------------7--------------------------------|
E|-0--2--3--5--7-----7--5--3--0--3--0--7/5--3--2--0|


[verse]
I would shine just like a million suns if you'd just love me baby
I'll be in your life again so baby, baby just say maybe


[chorus]
C           G       D               Em
Now here I come to dance around the sun
C        Em            D               Em
I've been oh so blue stuck behind the moon
C          G   D             Em
Now let me in back where we begin
C           Em                D
And let me hold you like the way
          Em (lick 4x)
I used to do


[verse]
All the stars point me to you and lately they just drive me crazy
A universe can be so cruel so baby, baby be my lady


[chorus]
C           G       D               Em
Now here I come to dance around the sun
C        Em            D               Em
I've been oh so blue stuck behind the moon
C          G   D             Em
Now let me in back where we begin
C           Em                D
And let me hold you like the way
          Em (lick 2x)
I used to do


[intermezzo]
Am C
Em (lick 1x)
Am C
Em (lick 2x)

E|--------------------------------------------------|
B|--------------------------------------------------|
G|--------------------------------------------------|
D|--------------------------------------------------|
A|----------------7---------------------------------|
E|-0--2--3--5--7-----7--5--3--0--3--0--7/5--3--2--0-|

E|-----------------------------------------------------|
B|-----------------------------------------------------|
G|-----------------9-----------------------------------|
D|-----------7--9-----9--7---------------9-7-----------|
A|-7--9--10-----------------10--7--10--7------10---5/7-|
E|-----------------------------------------------------|


[solo]
E|-/8-8-7-5----------------/8-8-7-10-8-7--5-5-5h7p5-----------------|
B|----------8---------------------------------------8---------------|
G|-----------/7-7-7h9p7-9~~~----------------------------------------|
D|------------------------------------------------------------------|
A|------------------------------------------------------------------|
E|------------------------------------------------------------------|

E|-/8-8-7-5----------------/8-8-7-10-8-7---5------5-----------------|
B|----------8-----------------------------------8---8-5-------------|
G|-----------/7-7-7h9p7-9~~~----------------------------------------|
D|------------------------------------------------------------------|
A|------------------------------------------------------------------|
E|------------------------------------------------------------------|


[verse]
I would shine just like a million suns if you'd just love me baby
I'll be in your life again so baby, baby just say maybe


[chorus]
C           G       D               Em
Now here I come to dance around the sun
C        Em            D               Em
I've been oh so blue stuck behind the moon
C          G   D             Em
Now let me in back where we begin
C           Em                D
And let me hold you like the way    3x

Em (lick)     D
I used to do       3x
Em (lick)
I used to do