Transpose: Reset | Hide Chords | Overview | Print
[intro]
   F#   E    A        C#      F#
E--6-------4-5--4h5---9-9-9-7s6--
B-----7s5------------------------
G--------------------------------  3x
D--------------------------------
A--------------------------------
E--------------------------------

   F#   E    D
E--6-------4-5--
B-----7s5-------
G---------------
D---------------
A---------------
E---------------


[verse]
                     F#                  E
You can say that I'm one curly fry in the box of the regular
A
Messing with the flavor oh the flavor that you savor
D                          C#                   F#
Saving me for last but you better not eat me at all
            D                    C#                           F#
Living in a fast food bag making friends with the ketchup and salt
                    F#                   E
People say that I'm crazy for not moving on to better things
            A
Instead I'm sitting around trash talking with the onion rings
        D                C#              F#
But its much too soon to leave this easy life
D                  C#                  F#
Pass me the spoon, pass the analytical knife


[chorus]
                        F#
Cause your about to get cut and get cut down
    A                                                 B
Its all about the wordplay all about the sound in the tone of my voice
                         F#
You gotta let me make my choice alone before my food gets cold
                                      A
Better shut up or get shot down, it's all about the know how
                     B                                           F#
All just a matter of taste, stop telling me the way I gotta play

Too much food on my plate


[intermezzo]
   F#   E    A        C#      F#   E    D
E--6-------4-5--4h5---9-9-9-7s6-------4-5--
B-----7s5------------------------7s5-------
G------------------------------------------
D------------------------------------------
A------------------------------------------
E------------------------------------------


[verse]
              F#                   E
Believe it or not I super sized my sights on the surprise
       A
In the cereal box my stomach's smaller than my eyes
     D                             C#                           F#
So I went to see the doctor and he said turn your head and then cough
                   D            C#                             F#
I didn't listen to what he said instead I couldn't wait to get off
                   F#                    E
He said I can have this but I can't have that
                   A
That I should keep wishing I was living the life of a cat because
D                     C#                   F#
I ain't the one whose gonna be missing the feast
          D                     C#                      F#
Just like you ain't the one who seems to be calming the beast


[chorus]
                      F#
Now your about to get cut and get cut down
    A                                                 B
Its all about the wordplay all about the sound in the tone of my voice
                         F#
You gotta let me make my choice alone before my food gets cold
                                      A
Better shut up or get shot down, it's all about the know how
                     B                                           F#
All just a matter of taste, stop telling me the way I gotta play

Too much food on my plate


[intermezzo]
   F#   E    A        C#      F#
E--6-------4-5--4h5---9-9-9-7s6--
B-----7s5------------------------
G--------------------------------  3x
D--------------------------------
A--------------------------------
E--------------------------------

   F#   E    D
E--6-------4-5--
B-----7s5-------
G---------------
D---------------
A---------------
E---------------


[bridge]
            C#                                           D        A         C#
Well if you are what you eat in my case I'll be sweet so come and get some
       D    E
I'm so over it


[chorus]
                      F#                    E
Now your about to get cut and get cut down
     A                                           B
It's all about the know how all just a matter of taste
                                      F#
Stop telling me the way I gotta play

Too much food on my plate
F#                   A                    B                    F#
Get up and get down, get up and get down, get up and get down, come on get up
F#                   A                    B
Get up and get some, get up and get some, get up and get some
F#
There's too much food on my plate come on


[outro]
   F#   E    A        C#      F#
E--6-------4-5--4h5---9-9-9-7s6--
B-----7s5------------------------
G--------------------------------  3x
D--------------------------------
A--------------------------------
E--------------------------------

   F#   E    D
E--6-------4-5--
B-----7s5-------
G---------------
D---------------
A---------------
E---------------