Transpose: Reset | Hide Chords | Overview | Print
[intro]
piano plays A  F#m  D  E 

---------------------------------------|
---------------------------------------|
---4/6------13\11--------9-9-7-6-------|
-------------------9\7-----------9-----|
---2/4------11\9-----------------------|
-------------------7\5-----------------|
                                                                              

----------------------------------------|
----------------------------------------|
---4/6------13\11--------9-9-7-6-4------|
-------------------9\7------------------|
---2/4------11\9---------7-7-5-4-2------|
-------------------7\5------------------|


[verse]
      A              F#m
Well I'm just people watching
          D               E
The other people watching me
    A                F#m
And we're all people watching
          D               E
The other people watching we


[chorus]
         F#m                    D7
We're as lonely as we wanted to be
             F#m                    D7
We're all as lonely as we wanted to be
        F#m                    D7
Just as lonely as we wanted to be
E              
I'm just you, you're just me
              F#m          D7
But it's only true if we believe


[intermezzo]
-------------------------------------------|
-------------------------------------------|
---4/6------13\11--------9-9-7-5-6-6-4-4---|
-------------------9\7---------------------|
---2/4------11\9---------7-7-5-5-4-4-2-2---|
-------------------7\5---------------------|

-------------------------------------------|
-------------------------------------------|
---4/6------13\11--------9-9-7-5-6-6-4-4---|
-------------------9\7---------------------|
---2/4------11\9---------7-7-5-5-4-4-2-2---|
-------------------7\5---------------------|


[verse]
           A                      F#m
Well there really ain't no use in stopping
                  D              E
What nobody never told me not to do
   A                F#m               
So I'll keep people watching, watching me now
D                      E
Finding my way back to you


[chorus]
         F#m                    D7
We're as lonely as we wanted to be
             F#m                    D7
We're all as lonely as we wanted to be
            F#m                   D7
I'm just as lonely as I wanted to be
         E
I'm just you, you're just me
              F#m           D7
But it's only true if we believe


[bridge]
C#m                                A   A7
I see so many feet going so many ways
C#m                                    A    A7
People passing by, they got nothing to say
G#                   F#m
All on our own, just watching and confused
B
Nobody told me what to do
  E
I can't stop breaking all the rules


[verse]
    A               F#m
And I'm just people watching
          D               E
The other people watching me
A                F#m
We're all people watching
          D               E
The other people watching we


[chorus]
         A                      F#m
We're as lonely as we wanted to be
             D                      E
We're not so lonely as we wanted to be
             A                    F#m
I'm just as lonely as I wanted to be

Not so lonely
D
Lonely, lonely, lonely
E
lonely, lonely, lonely


[outro]
-------------------------------------------|
-------------------------------------------|
---4/6------13\11--------9-9-7-5-6-6-4-4---|
-------------------9\7---------------------|
---2/4------11\9---------7-7-5-5-4-4-2-2---|
-------------------7\5---------------------|

-------------------------------------------|
-------------------------------------------|
---4/6------13\11--------9-9-7-5-6-6-4-4---|
-------------------9\7---------------------|
---2/4------11\9---------7-7-5-5-4-4-2-2---|
-------------------7\5---------------------|

A  F#m  D  E  (x2)