Transpose: Reset | Hide Chords | Overview | Print
[intro]
B  E

   E               B               E
E-------------------------------------
B-------------------------------------
G-------------------------------------
D--9---7--9--9-----------9---9--9--9--
A--11--9--7--6-----9-----11--9--7--7--
E----------------9-7------------------


[verse]
                               B                                     E
B-----------------------------------------------------------------------
B-----------------------------------------------------------------------
G----------6------------------------------------------------------------
D--9---9-------9---6---------------------9---9---6---9-9-6--------------
A----------------------9---7---9-----------------------------9---7---7--
E-----------------------------------------------------------------------
                               B                                     E
B-----------------------------------------------------------------------
B-----------------------------------------------------------------------
G----------6---9-9-6----------------------------------------------------
D--9---9---------------9---7---9---------9---9---6---9-9-6--------------
A------------------------------------------------------------9---7---7--
E-----------------------------------------------------------------------

                             B
Are they laughing at or with me
                             E
Ah baby those are such great shoes
                              B
And I think that I’m so happy now
                             E
And I think this is a better you


[chorus]
                               B                                     E
E-----------------------------------------------------------------------
B-----------------------------------------------------------------------
G--9---9---6---9---6---------------------9---9---6---9---6--------------
D----------------------9---6---9-----------------------------9---6------   2x
A--------------------------------------------------------------------7--
E-----------------------------------------------------------------------

         B
Oooooooo ooooh
                             E
Are they laughing at or with me
         B
Oooooooo ooooh
                              E
Why can’t we just say what we mean


[verse]
                              B
People are just trying to fit in
                               E
But is there something telling you
                               B
You can’t trust anyone in this town
                             E
Ah baby those are such great shoes


[chorus]
         B
Oooooooo ooooh
                             E
Are they laughing at or with me
         B
Oooooooo ooooh
                              E
Why can’t we just say what we mean


[bridge]
                                F#m             B
Don’t put your money where your mouth is baby
                 E               C#m
We don’t want to see you choke
                  F#m                 B
Nobody’s joking around here anymore
                     E             C#m
Nobody’s broking any high scores
                              F#m                  B
No dancing shoes have touched these dusty floors
                    E       C#m
For such a long long time
                    F#m     B
For such a long long time
                E
For such a long time


[solo]
                              B
E-------------------------------------------------------
B-------------------------------------------------------
G-------------------------------------------------------
D-------------------------------------------------------
A--------------7---9---9b11---b11---b11---b11~~~~~~~~---
E--4---7---9--------------------------------------------
   E
E-------------------------------------------------------
B-------------------------------------------------------
G-------------------------------------------------------
D--11--9------------------------------------------------
A----------11--9b--7---------------------------7---9----
E----------------------9b--7---5---4---7---9------------
   B                                                 E
E-------------------------------------------------------
B-------------------------------------------------------
G-------------------------------------------------------
D-------------------------------------------------------
A--9---9-7---------------7-----9---9-7---------------7--
E------------9---7---9-------------------9---7---9------

E-------------------------------------------------------
B-------------------------------------------------------
G-------------------------------------------------------
D--11--9------------------------------------------------
A----------11--9b--7-------7----------------------------
E----------------------9--------------------------------


[chorus]
         B
Oooooooo ooooh
                             E
Are they laughing at or with me
         B
Oooooooo ooooh
                              E
Why can’t we just say what we mean


[outro]
                               B                                     E
E-----------------------------------------------------------------------
B-----------------------------------------------------------------------
G--9---9---6---9---6---------------------9---9---6---9---6--------------
D----------------------9---6---9-----------------------------9---6------   4x
A--------------------------------------------------------------------7--
E-----------------------------------------------------------------------

         B
Oh oh oh ooooh
         E
Oh oh oh ooooh     4x