Transpose: Reset | Hide Chords | Overview | Print
[intro]
    F# 
E|--2---2-2h4p2---2-----------6-----6---6h9p6---6---6-XX---7---7---
B|--2-----------2------2--XX--7---------------7-----6-XX---7-------
G|--3------------------4--XX--6---------------------7-XX---8-------
D|--4------------------3--XX--6h8-------------------8-XX---9-------
A|--4------------------4--XX--6---------------------8-XX---9-------
E|--2-------------------------x---------------------6-XX---7-------

E|--7h9p7----7---6-XX--4---|
B|---------7-----6-XX--4---|
G|---------------6-XX--4---|
D|---------------6-XX--4---|
A|---------------8-XX--6---|
E|---------------6-XX--4---|


[funky part]
-----------------2-5-2-0-------------------------------
-------3/5-3/5~-2--------2~-------------------3/5-3/5~-
-------4/6-4/6~-------------2h4~-4-2~-2-------4/6-4/6~-
----------------------------------------2-3-4----------
-------------------------------------------------------
-0-1-2-------------------------------------------------

                                              
----------------------------------------2-5-2---
-----------------------------3/5-3/5~--2--------
-4b5b4~-2----2h4~-2~-2-------4/6-4/6~---------4-
----------4~-----------2-3-4------------------3-
----------------------------------------------4-
------------------------------------------------


[1st verse] 
            F#                          B7 
E|----------2---------------------------2--------------
B|----------2---------------------------4--------------
G|----------3---------------------------2--------------
D|-----4----4------------------4-4------4--------------
A|-4/6------4--------------4/6-----6-2~-2---0-2-0-2----
E|-------2~-2---0-2-0-2--------------------------------
Brushfire Fairytales...


            F#                          B7 
E|----------2---------------------------2--------------
B|----------2---------------------------4--------------
G|----------3---------------------------2--------------
D|-----4----4------------------4-4------4--------------
A|-4/6------4--------------4/6-----6-2~-2---0-2-0-2----
E|-------2~-2---0-2-0-2--------------------------------
Big Fat Hurricanes...


              C#7         C#7   B7     B7      F#          F#  C#7~
E|------------4-----------4-----2------2-------2-----------2---4~~-
B|------------6-----------6-----4------4-------2-----------2---6~~-
G|------------4-----------4-----2------2-------3-----------3---4~~-
D|-----4-3----6-----------6-----4------4-------4-----------4---6~~-
A|-4/6-----4~-4---0-4-0-4-4---2-2--0-2-2---2---4-----------4---4~~-
E|-------------------------------------2-----2-2---0-2-0-2-2-------
Well Shourtcuts can...


[2nd verse]
      F#               B7                F#               B7
E|----2----------2-----2----------2------2----------2-----2----------2---
B|----2----------2-----4----------4------2----------2-----4----------4---
G|----3----------3-----2----------2------3----------3-----2----------2---
D|----4----------4-----4----------4------4----------4-----4----------4---
A|----4----------4--2~-2--0-2-0-2-2------4----------4--2~-2--0-2-0-2-2---
E|-2~-2--0-2-0-2-2--------------------2~-2--0-2-0-2-2--------------------

      C#7         C#7   B7         B7    F#          F#  C#7~
E|----4-----------4-----2----------2-----2-----------2---4~~-
B|----6-----------6-----4----------4-----2-----------2---6~~-
G|----4-----------4-----2----------2-----3-----------3---4~~-
D|----6-----------6-----4----------4-----4-----------4---6~~-
A|-4~-4---0-4-0-4-4---2-2--0-2-0-2-2-----4-----------4---4~~-
E|---------------------------------2--2~-2---0-2-0-2-2-------


          F#
Brushfire fairytales
           B7
Itsy bitsy diamond wells
        F#
Big fat hurricanes
               B7
Yellow bellied given names
                   C#7
Well shortcuts can slow you down
           B7
And in the end we're bound
                  F#    C#7 
To rebound off of we


                   F#
Well dust off your thinking caps
              B7
Solar powered plastic plants
                   F# 
Pretty pictures of things we ate
            B7 
We are only what we hate
                C#7 
But in the long run we have found
                 B7 
Silent films are full of sound
          F#    C#7
Inaudibly free


[chorus]
F# 
Slow down everyone
       Bb 
You're moving too fast
B 
Frames can't catch you when 
       G# 
You're moving like that


[verse]
F# 
Inaudible melodies
   Bb 
Of narrational strategies
B 
Unobtrusive tones 
        G# 
Help to notice nothing but the zone
   F# 
Of visual relevancy
Bb 
Frame-lines tell me what to see 
B 
Chopping like an axe
         G# 
So maybe Eisenstein should just relax


[chorus]
F#
Slow down everyone
       Bb
You're moving too fast
B
Frames can't catch you when 
       G#
You're moving like that


[solo]
--11-14-11--11~------11-14-11------------11-14-11-----------11-11-11-11-14\0-
-11-------14--------11-------14-11~-----11-------14-12~----11----------------
-----------------------------------------------------------------------------
-----------------------------------------------------------------------------
-----------------------------------------------------------------------------
-----------------------------------------------------------------------------


[verse]
F# 
Well Plato's cave is full of freaks
Bb 
Demanding refunds for the things they've seen
  B 
I wish they could believe
           G#                G 
In all the things that never made the screen


[chorus]
         F# 
And just slow down everyone
       Bb 
You're moving too fast 
B 
Frames can't catch you when 
       G# 
You're moving like that
F# 
Slow down everyone
       Bb 
You're moving too fast
B 
Frames can't catch you when 
       G# 
You're moving like that

[outro]
(Add an extra F# chord at the end)
    F# 
E|--2---2-2h4p2---2-----------6-----6---6h9p6---6---6-XX---7---7---
B|--2-----------2------2--XX--7---------------7-----6-XX---7-------
G|--3------------------4--XX--6---------------------7-XX---8-------
D|--4------------------3--XX--6h8-------------------8-XX---9-------
A|--4------------------4--XX--6---------------------8-XX---9-------
E|--2-------------------------x---------------------6-XX---7-------

E|--7h9p7----7---6-XX--4---|
B|---------7-----6-XX--4---|
G|---------------6-XX--4---|
D|---------------6-XX--4---|
A|---------------8-XX--6---|
E|---------------6-XX--4---|