Transpose: Reset | Hide Chords | Overview | Print
[intro]
E-----------------------------------x--5---------------------------------- x--3--|
B-----------------------------------x--5-----------------------------------x--3--|
G-----------------------------------x--5-----------------------------------x--4--|
D-----------------------------------x--5-----------------------------------x--3--|
A---------5-------------------------x--7-----------5-----------------------x--5--|
E---5/7-------7---5---3---0---3/5---x--5-----5/7-------7---5---3---0---3---x--3--|

E-----------------------------------x--5-----------------------------------x--3--|
B-----------------------------------x--5-----------------------------------x--3--|
G-----------------------------------x--5-----------------------------------x--4--|
D-----------------------------------x--5-----------------------------------x--3--|
A---------5---7---5-----------------x--7-----------5-----------------------x--5--|
E---5/7----------------7---0---5----x--5-----5/7-------7---5---3---0---3---x--3--|
    Can't u see that it's just raining       there ain't no need to go outside

E---3--3--|
B---5--5--|
G---3--3--|
D---5--5--|
A---3--3--|
E---3--3--|
 but baby


[verse]
E-----3-3-x--------x-x-x--------5-5-x--------3-3-x----|
B-----3-3-x--------x-x-x--------5-5-x--------5-5-x----|
G-----4-4-x--------3-3-x--------5-5-x--------3-3-x----|
D-----3-3-x--------2-2-x--------5-5-x--------5-5-x----|
A-----5-5-x--------3-3-x--------7-7-x--------3-3-x----|
E-----3-3-x--------x-x-x--------5-5-x--------3-3-x----|
    You hardly even notice    When I try to show you this
   Song is meant to keep ya   From doing what your supposed to
     Waking up too early      Maybe we can sleep in
 Ill make you banana pancakes Pretend like its the weekend

E---5-5-x------5-5-x------5-5--|
B---5-5-x------5-5-x------5-5--|
G---5-5-x------5-5-x------5-5--|
D---5-5-x------5-5-x------5-5--|
A---7-7-x------7-7-x------7-7--|
E---5-5-x------5-5-x------5-5--|
    now....


[chorus]
E---------------------------------x---3-3-x-----3-3-x-----3-3--|
B---------------------------------x---3-3-x-----3-3-x-----3-3--|
G---------------------------------x---4-4-x-----4-4-x-----4-4--|
D---------------------------------x---3-3-x-----3-3-x-----3-3--|
A---------5-----------------------x---5-5-x-----5-5-x-----5-5--|
E---5/7-------7---5---3---0---3---x---3-3-x-----3-3-x-----3-3--|
    We can pretend it all the time

E---------------------------------x---5-5-x-----5-5-x-----5-5--|
B---------------------------------x---5-5-x-----5-5-x-----5-5--|
G---------------------------------x---5-5-x-----5-5-x-----5-5--|
D---------------------------------x---5-5-x-----5-5-x-----5-5--|
A---------5-----------------------x---7-7-x-----7-7-x-----7-7--|
E---5/7-------7---5---3---0---3/5-x---5-5-x-----5-5-x-----5-5--|
 Can't you see that it's just raining

E---------------------------------x---3-3-x-----3-3-x-----3-3--|
B---------------------------------x---3-3-x-----3-3-x-----3-3--|
G---------------------------------x---4-4-x-----4-4-x-----4-4--|
D---------------------------------x---3-3-x-----3-3-x-----3-3--|
A---------5-----------------------x---5-5-x-----5-5-x-----5-5--|
E---5/7-------7---5---3---0---3---x---3-3-x-----3-3-x-----3-3--|
 There ain't no need to go outside

E---3--3--|
B---5--5--|
G---3--3--|
D---5--5--|
A---3--3--|
E---3--3--|
Just maybe,


[verse]
E-----3-3-x--------x-x-x--------5-5-x--------3-3-x----|
B-----3-3-x--------x-x-x--------5-5-x--------5-5-x----|
G-----4-4-x--------3-3-x--------5-5-x--------3-3-x----|
D-----3-3-x--------2-2-x--------5-5-x--------5-5-x----|
A-----5-5-x--------3-3-x--------7-7-x--------3-3-x----|
E-----3-3-x--------x-x-x--------5-5-x--------3-3-x----|
       like and ukelele         Mommy made a baby
Really dont mind the breakfast  Cause your my little lady
      Lady lady love me         Cause I love to lay here lazy
  We could close the curtains   Pretend like there's no work

E---5-5-x------5-5-x------5-5--|
B---5-5-x------5-5-x------5-5--|
G---5-5-x------5-5-x------5-5--|
D---5-5-x------5-5-x------5-5--|
A---7-7-x------7-7-x------7-7--|
E---5-5-x------5-5-x------5-5--|
  outside...


[chorus]
E---------------------------------x---3-3-x-----3-3-x-----3-3--|
B---------------------------------x---3-3-x-----3-3-x-----3-3--|
G---------------------------------x---4-4-x-----4-4-x-----4-4--|
D---------------------------------x---3-3-x-----3-3-x-----3-3--|
A---------5-----------------------x---5-5-x-----5-5-x-----5-5--|
E---5/7-------7---5---3---0---3---x---3-3-x-----3-3-x-----3-3--|
    We can pretend that all the time

E---------------------------------x---5-5-x-----5-5-x-----5-5--|
B---------------------------------x---5-5-x-----5-5-x-----5-5--|
G---------------------------------x---5-5-x-----5-5-x-----5-5--|
D---------------------------------x---5-5-x-----5-5-x-----5-5--|
A---------5-----------------------x---7-7-x-----7-7-x-----7-7--|
E---5/7-------7---5---3---0---3/5-x---5-5-x-----5-5-x-----5-5--|
 Can't you see that it's just raining

E---------------------------------x---3-3-x-----3-3-x-----3-3-x-----3-3-x--|
B---------------------------------x---3-3-x-----3-3-x-----3-3-x-----3-3-x--|
G---------------------------------x---4-4-x-----4-4-x-----4-4-x-----4-4-x--|
D---------------------------------x---3-3-x-----3-3-x-----3-3-x-----3-3-x--|
A---------5-----------------------x---5-5-x-----5-5-x-----5-5-x-----5-5-x--|
E---5/7-------7---5---3---0---3---x---3-3-x-----3-3-x-----3-3-x-----3-3-x--|
 There ain't no need to go outside                 ain't no need ain't no need


[verse]
E-----5-5-x--------5-5-x--------5-5-x--------5-5-x----|
B-----5-5-x--------5-5-x--------5-5-x--------5-5-x----|
G-----5-5-x--------5-5-x--------5-5-x--------5-5-x----|
D-----5-5-x--------5-5-x--------5-5-x--------5-5-x----|
A-----7-7-x--------7-7-x--------7-7-x--------7-7-x----|
E-----5-5-x--------5-5-x--------5-5-x--------5-5-x----|
         Mmmm MMmmm          Can't you see can't you see

E-----3-3-x--------3-3-x--------3-3-x--------3-3-x----|
B-----3-3-x--------3-3-x--------3-3-x--------3-3-x----|
G-----4-4-x--------4-4-x--------4-4-x--------4-4-x----|
D-----3-3-x--------3-3-x--------3-3-x--------3-3-x----|
A-----5-5-x--------5-5-x--------5-5-x--------5-5-x----|
E-----3-3-x--------3-3-x--------3-3-x--------3-3-x----|
          Rain all day          And I dont mind.

E-----5-5-x--------5-5-x--------5-5-x--------5-5-x----|
B-----5-5-x--------5-5-x--------5-5-x--------5-5-x----|
G-----5-5-x--------5-5-x--------5-5-x--------5-5-x----|
D-----5-5-x--------5-5-x--------5-5-x--------5-5-x----|
A-----7-7-x--------7-7-x--------7-7-x--------7-7-x----|
E-----5-5-x--------5-5-x--------5-5-x--------5-5-x----|
  But the telephones singing ringing, it's to early don't pick it up

E-----5-5-x--------5-5-x--------5-5-x--------5-5-x----|
B-----7-7-x--------7-7-x--------7-7-x--------7-7-x----|
G-----7-7-x--------7-7-x--------7-7-x--------7-7-x----|
D-----7-7-x--------7-7-x--------7-7-x--------7-7-x----|
A-----5-5-x--------5-5-x--------5-5-x--------5-5-x----|
E-----x-x-x--------x-x-x--------x-x-x--------x-x-x----|
                                 We don't need to

E-----5-5-x--------5-5-x--------5-5-x--------5-5-x----|
B-----5-5-x--------5-5-x--------5-5-x--------5-5-x----|
G-----5-5-x--------5-5-x--------5-5-x--------5-5-x----|
D-----5-5-x--------5-5-x--------5-5-x--------5-5-x----|
A-----7-7-x--------7-7-x--------7-7-x--------7-7-x----|
E-----5-5-x--------5-5-x--------5-5-x--------5-5-x----|
We got everything we need right here and everything we need is enough

E-----5-5-x--------5-5-x--------5-5-x--------5-5-x----|
B-----7-7-x--------7-7-x--------7-7-x--------7-7-x----|
G-----7-7-x--------7-7-x--------7-7-x--------7-7-x----|
D-----7-7-x--------7-7-x--------7-7-x--------7-7-x----|
A-----5-5-x--------5-5-x--------5-5-x--------5-5-x----|
E-----x-x-x--------x-x-x--------x-x-x--------x-x-x----|
                                       Just so easy

E-----2-2-x--------2-2-x--------2-2-x--------2-2-x----|
B-----3-3-x--------3-3-x--------3-3-x--------3-3-x----|
G-----4-4-x--------4-4-x--------4-4-x--------4-4-x----|
D-----4-4-x--------4-4-x--------4-4-x--------4-4-x----|
A-----2-2-x--------2-2-x--------2-2-x--------2-2-x----|
E-----x-x-x--------x-x-x--------x-x-x--------x-x-x----|
    when the whole world fits inside of your arms

E-----7-7-x--------7-7-x--------7-7-x--------7-7-x----|
B-----8-8-x--------8-8-x--------8-8-x--------8-8-x----|
G-----9-9-x--------9-9-x--------9-9-x--------9-9-x----|
D-----9-9-x--------9-9-x--------9-9-x--------9-9-x----|
A-----7-7-x--------7-7-x--------7-7-x--------7-7-x----|
E-----x-x-x--------x-x-x--------x-x-x--------x-x-x----|
     Don't really need to pay attention to the alarm

E-----3-3-x--------3-3-x--------5-5-x--------5-5-x----|
B-----3-3-x--------3-3-x--------7-7-x--------7-7-x----|
G-----4-4-x--------4-4-x--------7-7-x--------7-7-x----|
D-----3-3-x--------3-3-x--------7-7-x--------7-7-x----|
A-----5-5-x--------5-5-x--------5-5-x--------5-5-x----|
E-----3-3-x--------3-3-x--------x-x-x--------x-x-x----|
          Wake up slow     Mmmmm  Mmmmm       Wake

E-----3-3-x--------3-3-x--------3-3-x----|
B-----3-3-x--------3-3-x--------3-3-x----|
G-----4-4-x--------4-4-x--------4-4-x----|
D-----3-3-x--------3-3-x--------3-3-x----|
A-----5-5-x--------5-5-x--------5-5-x----|
E-----3-3-x--------3-3-x--------3-3-x----|
    up slow...

E---3--3--|
B---5--5--|
G---3--3--|
D---5--5--|
A---3--3--|
E---3--3--|
 but baby


[verse]
E-----3-3-x--------x-x-x--------5-5-x--------3-3-x----|
B-----3-3-x--------x-x-x--------5-5-x--------5-5-x----|
G-----4-4-x--------3-3-x--------5-5-x--------3-3-x----|
D-----3-3-x--------2-2-x--------5-5-x--------5-5-x----|
A-----5-5-x--------3-3-x--------7-7-x--------3-3-x----|
E-----3-3-x--------x-x-x--------5-5-x--------3-3-x----|
    You hardly even notice    When I try to show you this
   Song is meant to keep ya   From doing what your supposed to
     Waking up too early      Maybe we can sleep in
 Ill make you banana pancakes Pretend like its the weekend

E---5-5-x------5-5-x------5-5--|
B---5-5-x------5-5-x------5-5--|
G---5-5-x------5-5-x------5-5--|
D---5-5-x------5-5-x------5-5--|
A---7-7-x------7-7-x------7-7--|
E---5-5-x------5-5-x------5-5--|
    now....


[chorus]
E---------------------------------x---3-3-x-----3-3-x-----3-3--|
B---------------------------------x---3-3-x-----3-3-x-----3-3--|
G---------------------------------x---4-4-x-----4-4-x-----4-4--|
D---------------------------------x---3-3-x-----3-3-x-----3-3--|
A---------5-----------------------x---5-5-x-----5-5-x-----5-5--|
E---5/7-------7---5---3---0---3---x---3-3-x-----3-3-x-----3-3--|
    We can pretend it all the time

E---------------------------------x---5-5-x-----5-5-x-----5-5--|
B---------------------------------x---5-5-x-----5-5-x-----5-5--|
G---------------------------------x---5-5-x-----5-5-x-----5-5--|
D---------------------------------x---5-5-x-----5-5-x-----5-5--|
A---------5-----------------------x---7-7-x-----7-7-x-----7-7--|
E---5/7-------7---5---3---0---3/5-x---5-5-x-----5-5-x-----5-5--|
 Can't you see that it's just raining

E---------------------------------x---3-3-x-----3-3-x-----3-3-x-----3-3-x--|
B---------------------------------x---3-3-x-----3-3-x-----3-3-x-----3-3-x--|
G---------------------------------x---4-4-x-----4-4-x-----4-4-x-----4-4-x--|
D---------------------------------x---3-3-x-----3-3-x-----3-3-x-----3-3-x--|
A---------5-----------------------x---5-5-x-----5-5-x-----5-5-x-----5-5-x--|
E---5/7-------7---5---3---0---3---x---3-3-x-----3-3-x-----3-3-x-----3-3-x--|
 There ain't no need to go outside                     Ain't no need ain't no

E-----5-5-x--------5-5-x--------5-5-x--------5-5-x----|
B-----5-5-x--------5-5-x--------5-5-x--------5-5-x----|
G-----5-5-x--------5-5-x--------5-5-x--------5-5-x----|
D-----5-5-x--------5-5-x--------5-5-x--------5-5-x----|
A-----7-7-x--------7-7-x--------7-7-x--------7-7-x----|
E-----5-5-x--------5-5-x--------5-5-x--------5-5-x----|
need                                  Rain all day and I

E-----3-3-x--------3-3-x--------3-3-x--------3-3-x----|
B-----3-3-x--------3-3-x--------3-3-x--------3-3-x----|
G-----4-4-x--------4-4-x--------4-4-x--------4-4-x----|
D-----3-3-x--------3-3-x--------3-3-x--------3-3-x----|
A-----5-5-x--------5-5-x--------5-5-x--------5-5-x----|
E-----3-3-x--------3-3-x--------3-3-x--------3-3-x----|
really really really don't mind      can't you see can't you

E-----5-5-x--------5-5-x--------5-5-x--------5-5-x---3---|
B-----5-5-x--------5-5-x--------5-5-x--------5-5-x---3---|
G-----5-5-x--------5-5-x--------5-5-x--------5-5-x---4---|
D-----5-5-x--------5-5-x--------5-5-x--------5-5-x---3---|
A-----7-7-x--------7-7-x--------7-7-x--------7-7-x---5---|
E-----5-5-x--------5-5-x--------5-5-x--------5-5-x---3---|
see                              you gotta wake up  slow...