Transpose: Reset | Hide Chords | Overview | Print
[main part]
-------------------------------------|--------------------------------------
-----7-------------------------------|-----7------------10--7---------------
-----7-------7----9--7---------------|-----7-------7----------9--7h9p7----7-
---------7-9-7---------9--7h9p7----7-|---------7-9-7-------------------9----
-7/9----------------------------9----|-7/9----------------------------------
-------------------------------------|--------------------------------------

-------------------------------------|--------------------------------------
-----7-------------------------------|-----7------------7---------7---------
-----7-------7----9--7---------------|-----7-------7----7h9--7----7h9-7---7-
---------7-9-7---------9--7h9p7----7-|---------7-9-7-----------9--------9---
-7/9----------------------------9----|-7/9----------------------------------
-------------------------------------|--------------------------------------


[intro]
D


[verse]
D
With everything ahead of us we left

Everything behind

But nothing that we needed at least

Not at this time and now
    G
The feeling that I'm feeling well
                                     D
It's feeling like my life is finally mine
     G
With nothing to go back to
                    D
We just continue to drive


[chorus]
-------------------------------------|--------------------------------------
-------------------------------------|--------------------------------------
-7/4--4/2--2/4--4/7--7/9--9/7--------|-7/4--4/2--2/4--4/7--7/9--9/11--------
-------------------------------------|--------------------------------------
-------------------------------------|--------------------------------------
-------------------------------------|--------------------------------------

-------------------------------------
--9h12--9-----9----------------------
-11--------11-----11-----------------
-------------------------------------
-------------------------------------
-------------------------------------

        Em
Cause Without you I was broken
        G                                   D
But I'd rather be broke down with you by my side
       Em
I said Without you I was broken
        G                                   D
But I'd rather be broke down with you by my side


[verse]
D
I didn't know what I was looking for so I

Didn't know what I'd find

I didn't know what I was missing

I guess you've been just a little too kind
    G
And if I find just what I need
                              D
I'll put a little peace in my mind
G
Maybe you've been looking too
                                D
Or maybe you don't even need to try


[chorus]
-------------------------------------|--------------------------------------
-------------------------------------|--------------------------------------
-7/4--4/2--2/4--4/7--7/9--9/11-------|-7/4--4/2--2/4--4/7--7/9--9/7---------
-------------------------------------|--------------------------------------
-------------------------------------|--------------------------------------
-------------------------------------|--------------------------------------

        Em
Cause Without you I was broken
        G                                   D
But I'd rather be broke down with you by my side
       Em
I said Without you I was broken
        G                                   D
But I'd rather be broke down with you by my side


[solo]
-------------------------------------------|------------------------------------
-------------------------------------------|------------------------------------
-----7--9-9/11--11/9---7-------------------|-----7--9/12-11--7-----12-11-9--9/7-
-7h9----------------------9/7--12/9--9/7-7-|-7-9--------------------------------
-------------------------------------------|------------------------------------
-------------------------------------------|------------------------------------

-------------------------------------------|------------------------------------
-------------------------------------------|------------------------------------
-------------------------2/7-7h9-7---7h9-7-|------------------------------------
-----------------------------------9-------|------------------------------------
-5/7/5--0-2--------------------------------|-0h2-0-----------------0-2-5/7-5----
-------------------------------------------|--------2-0----2-3---3--------------

----------------------------------------------
----------------------------------------------
----------7-----------------------------------
-----7/9------9-7-----------------------------
-7/9--------------9-7/5-------------0-2-5/7-5-
------------------------0---2-3---3-----------


[verse]
D
With everything in the past

Fading faster and faster until it was gone

Found out I was losing so much more than I knew all along
    G
But everything I've been working for
                       D
Only worth nickels and dimes
    G
But if I had a minute for every hour that I've wasted
               D
I'd be rich in time, I'd be doing fine


[chorus]
-------------------------------------|--------------------------------------
-------------------------------------|--------------------------------------
-7/4--4/2--2/4--4/7--7/9--9/11-------|-7/4--4/2--2/4--4/7--7/9--9/7---------
-------------------------------------|--------------------------------------
-------------------------------------|--------------------------------------
-------------------------------------|--------------------------------------

         Em
Cause Without you I was broken
        G                                   D
But I'd rather be broke down with you by my side
          Em                                                 2x
I said Without you I was broken
        G                                   D
But I'd rather be broke down with you by my side