Transpose: Reset | Hide Chords | Overview | Print
[intro]
   E                        F#m
E------------------------------------------------|
B------------------------------------------------|
G---------4---------4---4h6----------------------|
D----4/6-------4/6------------4---4h6-4h6-4---2--|
A------------------------------------------------|
E------------------------------------------------|
   E                        F#m
E------------------------------------------------|
B------------------------------------------------|
G---------4---------4---4h6----------------------|
D----4/6-------4/6------------4---4h6-4h6-4---2--|
A------------------------------------------------|
E------------------------------------------------|


[verse]
E
Who's to say what's impossible
F#m
Have they forgot

This world keeps spinning
E
And with each new day
                          F#m
I can feel a change in everything
                             E
And as the surface break reflections fade
                        F#m
But in some ways they remain the same
                            E
And as my mind begins to spread its wings
                      F#m
There's no stopping curiosity

I wanna turn the whole thing


[chorus]
E      F#m
Upside down
A             B                    E           F#m
I'll find the things they say just can't be found
A               B                 E     F#m
I'll share this love I find with everyone
A              B                 E          F#m
We'll sing and dance to Mother Nature's song
A               B                  E
I don't want this feeling to go away....


[interlude]
   E                        F#m
E------------------------------------------------|
B------------------------------------------------|
G---------4---------4---4h6----------------------|
D----4/6-------4/6------------4---4h6-4h6-4---2--|
A------------------------------------------------|
E------------------------------------------------|

   E                        F#m
E---------------------------------------------|
B---------------------------------------------|
G---------4-------4---4h6---------------------|
D----4/6-----4/6-------------4-------2-2h4-2--|
A---------------------------------4-----------|
E---------------------------------------------|


[verse]
E                                     F#m
Who's to say I can't do everything but I can try
                     E
And as I roll along I begin to find
                            F#m
Things aren't always just what they seem
                      E
I wanna turn the whole thing


[chorus]
E         F#m
Upside down
A              B
I'll find the things they say
E             F#m
Just can't be found
A               B                   E     F#m
I'll share this love I find with everyone
A             B                     E       F#m
We'll sing and dance to Mother Nature's song
A            B
This world keeps spinning and there's...


[bridge]
G#m             F#m
...no time to waste
        G#m           A
Well it all keeps spinning, spinning
B
round and round


[chorus]
E        F#m
Upside down
A                 B                E             F#m
Who's to say what's impossible and can't be found
A                 B               E
I don't want this feeling to go away


[outro]
E------------0---------------2-----------------|
B------------0---------------2-----------------|
G---------4--1------4---4h6--2-----------------|
D----4/6-----2-4/6-----------44----------------|
A------------2---------------4-----------------|
E------------0---------------2-----------------|

F#m                     E
     Please don't go away

E------------0---------------2-----------------|
B------------0---------------2-----------------|
G---------4--1------4---4h6--2-----------------|
D----4/6-----2-4/6-----------44----------------|
A------------2---------------4-----------------|
E------------0---------------2-----------------|

F#m                     E
     Please don't go away

E------------0----------------2---------------|
B------------0-----5--5h7-----2---------------|
G---------4--1-4/6---------4h62---------------|
D----4/6-----2----------------4---------------|
A------------2----------------4---------------|
E------------0----------------2---------------|

F#m                     E
     Please don't go away

Is this how it's supposed to be....

Is this how it's supposed to be......