Transpose: Reset | Hide Chords | Overview | Print
[intro]
G C/G G (2x)

[Verse]
   G                                    Am
If love is the drug on which we all are depending
     C         D            G   C/G   G
Then why is it so scarce to find
G                                            Am
Short is the rush though it might feel never-ending
          C                          D
It can be cruel, make you act like a fool
             G      G7
It makes you blind

[Chorus]
           C       D
Don't need eyes to see
        G    G7
Cause I feel it
        C
And for now
       D
That's enough for me
         G   C/G   G
To carry on

[Verse]
       G                                Am
On the route, to my roots, I sense some darkness
         C         D          G   C/G   G
While at home find out, I was right
   G                                                                      Am
It reminds me of the fact that we live in a world in which we're only navigating
     C        D                  G     G7
So I hold the wheel in search of light

[Chorus]
           C       D
Don't need eyes to see
        G    G7
Cause I feel it
        C
And for now
       D
That's enough for me
         F
To carry on

[Bridge]
      C
Is it science?
      G
Or synthetic
     F
Or pathetic
        D
What we do?
F      C           D
I will always love you

[solo]
C / D / G / G7
C / D / G / G7

E---------------------------------------------
B---------------------------------------------
G---------------------------------------------
D---------------------------------------------
A---------12-----14--11------14--12--11--12---
E--12-14--------------------------------------

E---------------------------------------------
B------------------------------15--14---------
G---------14-----14-16--14--16---------16--14-
D--14s16------16------------------------------
A---------------------------------------------
E---------------------------------------------

E---------------------------------------------
B---------------------------------------------
G--16-13----13-16--14--13--14------12--11--9--
D---------------------------------------------
A---------------------------------------------
E---------------------------------------------