Transpose: Reset | Hide Chords | Overview | Print
[riff guitar 1]
E----0---------------------------------------
B------------1-------1-------0-------3-------
G-------0-------0-------0-------0-------0----
D------------------------------------4-------
A----3-------2-------0---------------5-------
E----------------------------3---------------

[riff guitar 2] relative to CAPO
E--------------------------------------------
B--------------------------------------------
G----4-------2-------0---------------2-------
D-------0-------0-------0----4---------------
A-------------------------------5----0-------
E----3-------2-------0-----------------------


[intro]
G / C / G / D
G / C / G / D / G

[verse]
       G
In the night
        C
You are freezing
         G
When the morning comes
                D
You are boiling hot
      G
I can help you
      C
Fall asleep babe
       G              D                G
If you guide me in my search of better luck

[chorus]
       G
Are we red?
       C
Are we gold?
       G
Are we dead?
       D       G
Are we cold?

[verse]
      G
But i know babe
                C
You've got your principles
  G
I respect them
   D
Be silent for a while
       G
Oh and know babe
            (riff)                G
That I will always need you to survive

[chorus]
       G
Are we red?
       C
Are we gold?
       G
Are we dead?
       D
Are we cold?

       G
People tried to shape my life
       E7        C
But in time i realized
      G             D
I can make it on my own
           G
It's you I hold

[solo]
     G        C     G                 D     G                         C    G    C    G    D
E-----------------------------------------------------------------------------------------------------------
B-------------------------------12-13-------12------------------------13---12-------------------------------
G--7s12----12-------12----12-14-------14-------14-12-11-12---12-14-12-----------14---12---------------------
D-------------14--------------------------------------------------------------------------12----------------
A-----------------------------------------------------------------------------------------------------------
E-----------------------------------------------------------------------------------------------------------
   G        C     G                 D     G                         C    G    C    G    D              G
E-----------------------------------------------------------------------------------------------------------
B-----------------------------12-13-------12------------------------13---12---------------------------------
G--12----12-------12----12-14-------14-------14-12-11-12---12-14-12-----------14---12---12s14--------14s12--
D-----------14----------------------------------------------------------------------------------------------
A-----------------------------------------------------------------------------------------------------------
E-----------------------------------------------------------------------------------------------------------

[chorus]
       G
Are we red?
       C
Are we gold?
       G
Are we dead?
       D
Are we cold?

       G
People tried to shape my life
       E7        C
But in time i realized
      G             D
I can make it on my own
           G
It's you I hold