Transpose: Reset | Hide Chords | Overview | Print
[chords]
Cmaj7  x3545x
Am7    5x555x
Fmaj7  1x221x
G7     353433
C      x32010
C/B    x20010
Am7    x02010
E7/G#  42010x
D      x5403x
E      022100
D7     x5453x
Dm7    x57565
E7     x7675x
Fm7    131111
Bm7b5  x2323x 
Ddim7  x2313x

[intro]
Cmaj7 / Am7 / Fmaj7 / G7
Cmaj7 / Am7 / G7 / C

[verse]
          Cmaj7        Am7
I need to listen to my body
Fmaj7       G7
Tap into my soul
    Cmaj7       Am7
I'm living as a spirit
        G7          C
But I'm human after all

  C/B      Am7
I guess we all need guidance
E7/G#
Learn from silence
   Am7                              D
It takes a while before you can get in
      Fmaj7                         G7         C     C7
So we better stop the talking as we start listening

[chorus]
Fmaj7               G7
I've grown sick and tired
   Fmaj7              Am7               G7
We all cut corners to chase the perfect life
       Fmaj7          E              Am7   D7
Oh and in the end, in solitude we'll die
(riff)                G7           C
So I try to love my myself all the while

[verse]
     Cmaj7            Am7
I am more than just a number
Maj7       G7
More than 42
Cmaj7           Am7
Counting all my blessings
       G7           C
Is the only thing I do

    C/B  Am7
But on a daily basis
E7/G#
Sweet frustrations
Am7                      D
Deceive me like my worst enemy
     Fmaj7                        G7            C    C7
So I gotta quit the talking and unfold the mystery

[chorus]
Fmaj7               G7
I've grown sick and tired
   Fmaj7              Am7               G7
We all cut corners to chase the perfect life
       Fmaj7          E              Am7   D7
Oh and in the end, in solitude we'll die
(riff)                G7
So I try to love my myself

[bridge]
        Dm7
All the while
             E7
When love is gone
  Cmaj7                  Fmaj7
I let go of ideas ony by one
  Dm7         Fm7      Bm7b5 / Ddim7
I just breath and move on

[solo]
E----------------------------------------------------------------------------------------
B-----7----------5------7-10-------7-10--------------------------------------------------
G--9--------6-7--------------------------7s6--6h7p6s4----4-----6-3------3-4------4-------
D-----------------------------9------------------------7---------------------------6-----
A----------------------------------------------------------------------------------------
E----------------------------------------------------------------------------------------

E----------------------------------------------------------------------------------------
B----------------------------------------------------------------------------------------
G--4-6-7--6--4---------------------------------------------------------------------------
D---------------7--4---------------------------------------------------------------------
A-----------------------7----5-----------------------------------------------------------
E----------------------------------------------------------------------------------------