Transpose: Reset | Hide Chords | Overview | Print
[intro]
     Fmaj7
E|-0----0-0-|
B|-1----1-1-|
G|-0h2--2-2-|
D|-3----3-3-| 4x
A|----------|
E|----------|


[verse]
Am                 C                    Fmaj7
Bones sinking like stones, all that we fought for
Am                  C                    Fmaj7
Homes, places we've grown, all of us are done for


[chorus]
  Dm                             Am               G6
E|-5-5-5-5-5-5-5-5-7-7-7-8-8-8-8---------------------15----15\5-|
B|-------------------------------5-5-5-5-5-5-5/10/13----13------|
G|--------------------------------------------------------------|
D|--------------------------------------------------------------|
A|--------------------------------------------------------------|
E|--------------------------------------------------------------|

  Dm                                    Fmaj7
E|-5-5-5-5-5-5-5-5-7-7-7-8-8-8-8------------5-----------5-------|
B|--------------------------------------5h6---5h6-5-5h6---5h6-5-|
G|--------------------------------------------------------------|
D|--------------------------------------------------------------|
A|--------------------------------------------------------------|
E|--------------------------------------------------------------|


Dm                      Am   G                    Dm
We live in a beautiful world, yeah we do, yeah we do
                        Fmaj7
We live in a beautiful world


[verse]
Am                 C                    Fmaj7
Bones sinking like stones, all that we fought for
Am                  C                    Fmaj7
Homes, places we?ve grown, all of us are done for


[chorus]
Dm                      Am   G                    Dm
We live in a beautiful world, yeah we do, yeah we do
                        Fmaj7
We live in a beautiful world


[piano solo]
   Am       C        Fmaj7  Am       C            Fmaj7
E|------------------------|---------------------------|
B|-5--8-6-5-5--8-6-5------|-5?-8-6-5-5--8-6-5-6-5-----|
G|-------------------7-5--|---------------------------|
D|------------------------|-----------------------7~~-|
A|------------------------|---------------------------|
E|------------------------|---------------------------|


[chorus]
Dm                      Am   G                    Dm
We live in a beautiful world, yeah we do, yeah we do
                        Fmaj7
We live in a beautiful world


[guitar solo]
   Am                      C                         Fmaj7
E|------12----12----12----12----12----12----12----------5-----------5-------|
B|-5/13----13----13----13----13----13----13----13---5h6---5h6-5-5h6---5h6-5-|
G|--------------------------------------------------------------------------|
D|--------------------------------------------------------------------------|
A|--------------------------------------------------------------------------|
E|--------------------------------------------------------------------------|


[verse]
Am             C                             Fmaj7
Oh, all that I know, there's nothing here to run from
      Am            C                    Fmaj7
Cause yet everybody here got somebody to lean on