Transpose: Reset | Hide Chords | Overview | Print
[intro]
G  Gsus4-G  Am  C  D  G Gsus4-G


[verse]
G        Am
Hey baby! Yes I’ll grave you
C      D                 G Gsus4-G
We all do what we got to do
G           Am
Hey darling! I’m broken hearted
C         D                       G        Gsus4-G
I’ve been crying but my crying is through


[chorus]
G
And I've learned a lot
         Am
I really learned a lot
C      D                  G
Broken down on a bathroom floor
G
Yes I've learned a lot
         Am
I really learned a lot
  C                   D               G   Gsus4-G
I hope you found what you are looking for


[verse]
G                                  Am
Spent a lot of time staring at the sealing
C              D               G     Gsus4-G
Spent a lot of time talking to wall
G                                Am
Spent a lot of time chasing that old time feeling
C              D                    G     Gsus4-G
Spent a lot of time waiting on your call


[chorus]
G
And I've learned a lot
         Am
I really learned a lot
C      D                  G
Broken down on a bathroom floor
G
Yes I've learned a lot
         Am
I really learned a lot
  C                   D               G   Gsus4-G
I hope you found what you are looking for


[bridge]
       F                         G
Oh and darling, the sun has been falling
         F                       G
Like the dust on some Midwestern plane
       Am                  Em
Oh and darling, instead of running
                    Bb
I think it might be time you sit down
                  D
And deal with the pain


[solo]
  D                 G                    Am           C        D                G
E----------------------------------------------------------------------------------
B----------------------------------------------------------------------------------
G--------------------------------5-7b8---7-5-7--------7b8--------8b7-5-------------
D-----------------------5----5-7---------------------------------------7--5-5h7----
A---------3--3h5s7--5s7---------------------------------------------------------7--
E-----3h5--------------------------------------------------------------------------

   G                             Am           C      D              G          C
E----------------------------------------------------------------------------------
B----------------------------------------------------------------------------------
G----------------------5-5-5-5-5-5h7------7b8-7-5-------------------------5--------
D----------------------5-5-5-5-5------------------7--7-5---------------5-----5s7---
A-----------3--5s7---------------------------------------7--7-5s3---3--------------
E--3-3--3h5-------------------------------------------------------5----------------

           G
E-------------
B-------------
G-------------
D--7-5--------
A------5b7s3--
E-------------


[verse]
G                                     Am
Late at night I sit and listen to the freeway
C              D                  G     Gsus4-G
Rolling like a river on a distant shore
G                              Am
Nobody told me that living was easy
C       D              G       Gsus4-G
I ain't living in fear anymore


[chorus]
G
And I've learned a lot
         Am
I really learned a lot
C      D                  G
Broken down on a bathroom floor
G
Yes I've learned a lot
         Am
I really learned a lot
  C                   D               Em
I hope you found what you are looking for
  C                   D               G   Gsus4-G
I hope you found what you are looking for