Transpose: Reset | Hide Chords | Overview | Print
[intro (no capo)]
  G        C          G           C               G
E------------------------------------------------------
B--------5-7-7-7------------------3/5-5-5-5/3-3-2-3/5--
G--------6-7-7-7----------2-------4/6-6-6-6/4-4-2-4/6--
D--------7-7-7-7------2-4---4-2------------------------
A--------7-5-5-5----------------4----------------------
E------------------------------------------------------

G   C    3x

   G              C
E------9---7-5----5--
B--5/7---------7-----
G--------------------
D--------------------
A--------------------
E--------------------


[verse]
            G           C            G
Don't wanna be a martyr in this war
                            C        G
Don't wanna hear the same excuses anymore
      D
That everything's a threat
         C                              G   C   G   D  (riff 1)
And it's only gonna get worse if we let it

              G                C               G
Don't wanna blame the rich for what they got
                                     C              G
Don't point a finger at the poor for what they have not
               D
Though the politician and the priest
            C                                 G   D  (riff 1)
Live in the belly of the beast because we fed it


[chorus]
G          Em      C     D  (riff 2)
Freedom is seldom found
   G           Em          C      D  (riff 2)
By beating someone to the ground
G            Em       C        D        G   C   G  D  G  (riff 1)
Telling them how everything is gonna be now, Yeaaaaaah


[solo (no capo)]
  G   C             G                       C          G
E-5--------------------------------5---------------------5--------------
B--------5/7--5---3-2-0---------------------5/7--5--3--2-----55--33--2--
G-----------------------2------4h6-----4/6-------------------66--44--2--
D-----------------------------------------------------------------------
A-----------------------------------------------------------------------
E-----------------------------------------------------------------------


[verse]
           G                          C                   G
Now if the tables were turned tell me how you would feel
                                           C           G
Somebody busted up into your house telling you to stay still
                  D
While the leaders will deny defeat
    C                                  G      D   (riff 1)
Innocents they testify by dying in the street


[chorus]
G          Em      C     D  (riff 2)
Freedom is seldom found
   G           Em          C      D  (riff 2)
By beating someone to the ground
G            Em       C        D         (riff 3)
Telling them how everything is gonna be
G          Em      C     D  (riff 2)
Freedom is seldom found
   G           Em          C      D  (riff 3)
By beating someone to the ground
G            Em       C        D        G  Gsus4 G
Telling them how everything is gonna be now


[riff 1 (no capo)]
E--9/7-7/5-7p5----
B-10/7-7/5-5------
G-----------------
D-----------------
A-----------------
E-----------------

[riff 2 (no capo)]
E-----------------
B-----------------
G-----------------
D-0---------------
A---4-2----0---0--
E------------4----

[riff 3 (no capo)]
E------------------
B------------------
G------------------
D---2-4-----4-6----
A-5-----5-7-----7--
E------------------