Transpose: Reset | Hide Chords | Overview | Print
[riff 1]
E----------------------
B----------------------
G----------------------
D--9----7--------------
A------------10--------
E------------------10--

[riff 2]
E----------------------
B----------------------
G--7-----7--9----------
D----9-----------------
A----------------------
E----------------------

[riff 3 (chorus)]
E----------------------
B----------------------
G--7---7---7---7-------
D----7---7---7---7-----
A----------------------
E----------------------

[riff 4]
E-----------------------------
B-----------------7-----------
G--7-----7--9-------7---------
D----9----------------7-------
A-----------------------10-9--
E-----------------------------

[riff 5 (bridge)]
E--------------2----------3-------------------0--
B--------------2----------3-------------------2--
G--4--2--0-----3----------4-------4--2--0-----2--
D-----------2--4----------5----------------4--2--
A--------------4----------5-------------------0--
E--------------2----------3----------------------


[intro]
D  G       4x


[verse]
D                G
A thousand empty windows
D        G                   D    G  D  G
and only half the lights are out
              D             G       D
I wonder what these peoples lives
          G            D     (riff 1)  G  D  G  
what they might be all about

              D       G  D
Do they got a lover?
           G          D    G  D  G
Could they have a family?
               D       G        D
Could they be just as lonesome
   G       D  (riff 2)  G  D  G
as you and me?


[chorus]
              D
I wanna shout out
G          D     G
Shout out loud
              D
Why don't you all
     G       D    G
Just come on out
     D  G          D     G       D  G  D  G
We can, Tear it all down, yeah


[verse]
D             G         D
White lights burn'in,
         G       D  (riff 1) G  D  G
Down an empty avenue
                   D
I wonder if their driver
  G       D          G          D  (riff 2) G  D  G
found someone he can go on home to


[chorus]
              D
I wanna shout out
G          D     G
Shout out loud
              D
Why don't you all
     G       D    G
Just come on out
     D  G          D     G    
We can, Tear it all down, yeah


[bridge]
C                      G
Cause everybodys got a part in the game,
C                    G                     (riff 5)
and everybodys got a cross they can claim,
F#                      G
and everybodys gots somebody to blame
       A                             (riff 4)
but we all must find our own way

D  G       4x


[outro]
              D
I wanna shout out
G          D     G
Shout out loud         3x


G          D     G
Shout out loud         (repeat)